ISO-10303-21;
HEADER;
/* Generated by software containing ST-Developer
 * from STEP Tools, Inc. (www.steptools.com) 
 */

FILE_DESCRIPTION(
/* description */ (''),
/* implementation_level */ '2;1');

FILE_NAME(
/* name */ 'C:/Users/user/Desktop/Web/MK224/CAD/MK65SCadapt v3.step',
/* time_stamp */ '2020-07-08T13:44:21-04:00',
/* author */ (''),
/* organization */ (''),
/* preprocessor_version */ 'ST-DEVELOPER v18.1',
/* originating_system */ 'Autodesk Translation Framework v9.3.0.1241',
/* authorisation */ '');

FILE_SCHEMA (('AUTOMOTIVE_DESIGN { 1 0 10303 214 3 1 1 }'));
ENDSEC;

DATA;
#10=MECHANICAL_DESIGN_GEOMETRIC_PRESENTATION_REPRESENTATION('',(#13),#537);
#11=SHAPE_REPRESENTATION_RELATIONSHIP('SRR','None',#547,#12);
#12=ADVANCED_BREP_SHAPE_REPRESENTATION('',(#14),#536);
#13=STYLED_ITEM('',(#556),#14);
#14=MANIFOLD_SOLID_BREP('Body1',#305);
#15=PLANE('',#324);
#16=PLANE('',#325);
#17=PLANE('',#326);
#18=PLANE('',#327);
#19=PLANE('',#328);
#20=PLANE('',#330);
#21=PLANE('',#335);
#22=PLANE('',#339);
#23=PLANE('',#343);
#24=PLANE('',#344);
#25=PLANE('',#345);
#26=PLANE('',#352);
#27=FACE_OUTER_BOUND('',#45,.T.);
#28=FACE_OUTER_BOUND('',#46,.T.);
#29=FACE_OUTER_BOUND('',#47,.T.);
#30=FACE_OUTER_BOUND('',#48,.T.);
#31=FACE_OUTER_BOUND('',#49,.T.);
#32=FACE_OUTER_BOUND('',#50,.T.);
#33=FACE_OUTER_BOUND('',#51,.T.);
#34=FACE_OUTER_BOUND('',#52,.T.);
#35=FACE_OUTER_BOUND('',#53,.T.);
#36=FACE_OUTER_BOUND('',#54,.T.);
#37=FACE_OUTER_BOUND('',#55,.T.);
#38=FACE_OUTER_BOUND('',#56,.T.);
#39=FACE_OUTER_BOUND('',#57,.T.);
#40=FACE_OUTER_BOUND('',#58,.T.);
#41=FACE_OUTER_BOUND('',#59,.T.);
#42=FACE_OUTER_BOUND('',#60,.T.);
#43=FACE_OUTER_BOUND('',#61,.T.);
#44=FACE_OUTER_BOUND('',#62,.T.);
#45=EDGE_LOOP('',(#197,#198,#199,#200,#201,#202));
#46=EDGE_LOOP('',(#203,#204,#205,#206));
#47=EDGE_LOOP('',(#207,#208,#209,#210));
#48=EDGE_LOOP('',(#211,#212,#213,#214));
#49=EDGE_LOOP('',(#215,#216,#217,#218));
#50=EDGE_LOOP('',(#219,#220,#221,#222));
#51=EDGE_LOOP('',(#223,#224,#225,#226));
#52=EDGE_LOOP('',(#227,#228,#229,#230,#231,#232));
#53=EDGE_LOOP('',(#233,#234,#235,#236));
#54=EDGE_LOOP('',(#237,#238,#239,#240,#241,#242));
#55=EDGE_LOOP('',(#243,#244,#245,#246));
#56=EDGE_LOOP('',(#247,#248,#249,#250,#251,#252));
#57=EDGE_LOOP('',(#253,#254,#255,#256));
#58=EDGE_LOOP('',(#257,#258,#259,#260));
#59=EDGE_LOOP('',(#261,#262,#263,#264));
#60=EDGE_LOOP('',(#265,#266,#267,#268,#269,#270));
#61=EDGE_LOOP('',(#271,#272,#273,#274,#275,#276));
#62=EDGE_LOOP('',(#277,#278,#279,#280));
#63=LINE('',#455,#89);
#64=LINE('',#462,#90);
#65=LINE('',#464,#91);
#66=LINE('',#465,#92);
#67=LINE('',#468,#93);
#68=LINE('',#470,#94);
#69=LINE('',#471,#95);
#70=LINE('',#474,#96);
#71=LINE('',#476,#97);
#72=LINE('',#477,#98);
#73=LINE('',#480,#99);
#74=LINE('',#482,#100);
#75=LINE('',#483,#101);
#76=LINE('',#489,#102);
#77=LINE('',#491,#103);
#78=LINE('',#492,#104);
#79=LINE('',#496,#105);
#80=LINE('',#498,#106);
#81=LINE('',#499,#107);
#82=LINE('',#510,#108);
#83=LINE('',#516,#109);
#84=LINE('',#518,#110);
#85=LINE('',#519,#111);
#86=LINE('',#522,#112);
#87=LINE('',#524,#113);
#88=LINE('',#525,#114);
#89=VECTOR('',#359,0.0395660870415853);
#90=VECTOR('',#368,0.393700787401575);
#91=VECTOR('',#369,0.393700787401575);
#92=VECTOR('',#370,0.393700787401575);
#93=VECTOR('',#373,0.393700787401575);
#94=VECTOR('',#374,0.393700787401575);
#95=VECTOR('',#375,0.393700787401575);
#96=VECTOR('',#378,0.393700787401575);
#97=VECTOR('',#379,0.393700787401575);
#98=VECTOR('',#380,0.393700787401575);
#99=VECTOR('',#383,0.393700787401575);
#100=VECTOR('',#384,0.393700787401575);
#101=VECTOR('',#385,0.393700787401575);
#102=VECTOR('',#390,0.393700787401575);
#103=VECTOR('',#391,0.393700787401575);
#104=VECTOR('',#392,0.393700787401575);
#105=VECTOR('',#397,0.393700787401575);
#106=VECTOR('',#398,0.393700787401575);
#107=VECTOR('',#399,0.393700787401575);
#108=VECTOR('',#418,0.0395660870415853);
#109=VECTOR('',#425,0.393700787401575);
#110=VECTOR('',#426,0.393700787401575);
#111=VECTOR('',#427,0.393700787401575);
#112=VECTOR('',#430,0.393700787401575);
#113=VECTOR('',#431,0.393700787401575);
#114=VECTOR('',#432,0.393700787401575);
#115=CIRCLE('',#320,0.0395660870415853);
#116=CIRCLE('',#321,0.0395660870415853);
#117=CIRCLE('',#322,0.0395660870415853);
#118=CIRCLE('',#323,0.0395660870415853);
#119=CIRCLE('',#329,0.0395660870415853);
#120=CIRCLE('',#331,0.0395660870415853);
#121=CIRCLE('',#333,0.669291338582677);
#122=CIRCLE('',#334,0.669291338582677);
#123=CIRCLE('',#336,0.590551181102362);
#124=CIRCLE('',#338,0.590551181102362);
#125=CIRCLE('',#341,0.0395660870415853);
#126=CIRCLE('',#342,0.0395660870415853);
#127=CIRCLE('',#346,0.669291338582677);
#128=CIRCLE('',#347,0.590551181102362);
#129=CIRCLE('',#349,0.590551181102362);
#130=CIRCLE('',#351,0.669291338582677);
#131=VERTEX_POINT('',#451);
#132=VERTEX_POINT('',#452);
#133=VERTEX_POINT('',#454);
#134=VERTEX_POINT('',#456);
#135=VERTEX_POINT('',#461);
#136=VERTEX_POINT('',#463);
#137=VERTEX_POINT('',#467);
#138=VERTEX_POINT('',#469);
#139=VERTEX_POINT('',#473);
#140=VERTEX_POINT('',#475);
#141=VERTEX_POINT('',#479);
#142=VERTEX_POINT('',#481);
#143=VERTEX_POINT('',#485);
#144=VERTEX_POINT('',#486);
#145=VERTEX_POINT('',#488);
#146=VERTEX_POINT('',#490);
#147=VERTEX_POINT('',#495);
#148=VERTEX_POINT('',#497);
#149=VERTEX_POINT('',#509);
#150=VERTEX_POINT('',#511);
#151=VERTEX_POINT('',#515);
#152=VERTEX_POINT('',#517);
#153=VERTEX_POINT('',#521);
#154=VERTEX_POINT('',#523);
#155=EDGE_CURVE('',#131,#132,#115,.T.);
#156=EDGE_CURVE('',#131,#133,#63,.T.);
#157=EDGE_CURVE('',#134,#133,#116,.T.);
#158=EDGE_CURVE('',#133,#134,#117,.T.);
#159=EDGE_CURVE('',#132,#131,#118,.T.);
#160=EDGE_CURVE('',#135,#134,#64,.T.);
#161=EDGE_CURVE('',#136,#135,#65,.T.);
#162=EDGE_CURVE('',#133,#136,#66,.T.);
#163=EDGE_CURVE('',#137,#133,#67,.T.);
#164=EDGE_CURVE('',#138,#137,#68,.T.);
#165=EDGE_CURVE('',#134,#138,#69,.T.);
#166=EDGE_CURVE('',#139,#132,#70,.T.);
#167=EDGE_CURVE('',#140,#139,#71,.T.);
#168=EDGE_CURVE('',#131,#140,#72,.T.);
#169=EDGE_CURVE('',#141,#131,#73,.T.);
#170=EDGE_CURVE('',#142,#141,#74,.T.);
#171=EDGE_CURVE('',#132,#142,#75,.T.);
#172=EDGE_CURVE('',#143,#144,#119,.T.);
#173=EDGE_CURVE('',#145,#144,#76,.T.);
#174=EDGE_CURVE('',#146,#145,#77,.T.);
#175=EDGE_CURVE('',#143,#146,#78,.T.);
#176=EDGE_CURVE('',#144,#143,#120,.T.);
#177=EDGE_CURVE('',#147,#143,#79,.T.);
#178=EDGE_CURVE('',#148,#147,#80,.T.);
#179=EDGE_CURVE('',#144,#148,#81,.T.);
#180=EDGE_CURVE('',#135,#148,#121,.T.);
#181=EDGE_CURVE('',#138,#145,#122,.T.);
#182=EDGE_CURVE('',#146,#137,#123,.T.);
#183=EDGE_CURVE('',#147,#136,#124,.T.);
#184=EDGE_CURVE('',#143,#149,#82,.T.);
#185=EDGE_CURVE('',#150,#149,#125,.T.);
#186=EDGE_CURVE('',#149,#150,#126,.T.);
#187=EDGE_CURVE('',#151,#150,#83,.T.);
#188=EDGE_CURVE('',#152,#151,#84,.T.);
#189=EDGE_CURVE('',#149,#152,#85,.T.);
#190=EDGE_CURVE('',#153,#149,#86,.T.);
#191=EDGE_CURVE('',#154,#153,#87,.T.);
#192=EDGE_CURVE('',#150,#154,#88,.T.);
#193=EDGE_CURVE('',#151,#142,#127,.T.);
#194=EDGE_CURVE('',#141,#152,#128,.T.);
#195=EDGE_CURVE('',#140,#153,#129,.T.);
#196=EDGE_CURVE('',#154,#139,#130,.T.);
#197=ORIENTED_EDGE('',*,*,#155,.F.);
#198=ORIENTED_EDGE('',*,*,#156,.T.);
#199=ORIENTED_EDGE('',*,*,#157,.F.);
#200=ORIENTED_EDGE('',*,*,#158,.F.);
#201=ORIENTED_EDGE('',*,*,#156,.F.);
#202=ORIENTED_EDGE('',*,*,#159,.F.);
#203=ORIENTED_EDGE('',*,*,#158,.T.);
#204=ORIENTED_EDGE('',*,*,#160,.F.);
#205=ORIENTED_EDGE('',*,*,#161,.F.);
#206=ORIENTED_EDGE('',*,*,#162,.F.);
#207=ORIENTED_EDGE('',*,*,#157,.T.);
#208=ORIENTED_EDGE('',*,*,#163,.F.);
#209=ORIENTED_EDGE('',*,*,#164,.F.);
#210=ORIENTED_EDGE('',*,*,#165,.F.);
#211=ORIENTED_EDGE('',*,*,#155,.T.);
#212=ORIENTED_EDGE('',*,*,#166,.F.);
#213=ORIENTED_EDGE('',*,*,#167,.F.);
#214=ORIENTED_EDGE('',*,*,#168,.F.);
#215=ORIENTED_EDGE('',*,*,#159,.T.);
#216=ORIENTED_EDGE('',*,*,#169,.F.);
#217=ORIENTED_EDGE('',*,*,#170,.F.);
#218=ORIENTED_EDGE('',*,*,#171,.F.);
#219=ORIENTED_EDGE('',*,*,#172,.T.);
#220=ORIENTED_EDGE('',*,*,#173,.F.);
#221=ORIENTED_EDGE('',*,*,#174,.F.);
#222=ORIENTED_EDGE('',*,*,#175,.F.);
#223=ORIENTED_EDGE('',*,*,#176,.T.);
#224=ORIENTED_EDGE('',*,*,#177,.F.);
#225=ORIENTED_EDGE('',*,*,#178,.F.);
#226=ORIENTED_EDGE('',*,*,#179,.F.);
#227=ORIENTED_EDGE('',*,*,#173,.T.);
#228=ORIENTED_EDGE('',*,*,#179,.T.);
#229=ORIENTED_EDGE('',*,*,#180,.F.);
#230=ORIENTED_EDGE('',*,*,#160,.T.);
#231=ORIENTED_EDGE('',*,*,#165,.T.);
#232=ORIENTED_EDGE('',*,*,#181,.T.);
#233=ORIENTED_EDGE('',*,*,#174,.T.);
#234=ORIENTED_EDGE('',*,*,#181,.F.);
#235=ORIENTED_EDGE('',*,*,#164,.T.);
#236=ORIENTED_EDGE('',*,*,#182,.F.);
#237=ORIENTED_EDGE('',*,*,#177,.T.);
#238=ORIENTED_EDGE('',*,*,#175,.T.);
#239=ORIENTED_EDGE('',*,*,#182,.T.);
#240=ORIENTED_EDGE('',*,*,#163,.T.);
#241=ORIENTED_EDGE('',*,*,#162,.T.);
#242=ORIENTED_EDGE('',*,*,#183,.F.);
#243=ORIENTED_EDGE('',*,*,#178,.T.);
#244=ORIENTED_EDGE('',*,*,#183,.T.);
#245=ORIENTED_EDGE('',*,*,#161,.T.);
#246=ORIENTED_EDGE('',*,*,#180,.T.);
#247=ORIENTED_EDGE('',*,*,#172,.F.);
#248=ORIENTED_EDGE('',*,*,#184,.T.);
#249=ORIENTED_EDGE('',*,*,#185,.F.);
#250=ORIENTED_EDGE('',*,*,#186,.F.);
#251=ORIENTED_EDGE('',*,*,#184,.F.);
#252=ORIENTED_EDGE('',*,*,#176,.F.);
#253=ORIENTED_EDGE('',*,*,#186,.T.);
#254=ORIENTED_EDGE('',*,*,#187,.F.);
#255=ORIENTED_EDGE('',*,*,#188,.F.);
#256=ORIENTED_EDGE('',*,*,#189,.F.);
#257=ORIENTED_EDGE('',*,*,#185,.T.);
#258=ORIENTED_EDGE('',*,*,#190,.F.);
#259=ORIENTED_EDGE('',*,*,#191,.F.);
#260=ORIENTED_EDGE('',*,*,#192,.F.);
#261=ORIENTED_EDGE('',*,*,#188,.T.);
#262=ORIENTED_EDGE('',*,*,#193,.T.);
#263=ORIENTED_EDGE('',*,*,#170,.T.);
#264=ORIENTED_EDGE('',*,*,#194,.T.);
#265=ORIENTED_EDGE('',*,*,#190,.T.);
#266=ORIENTED_EDGE('',*,*,#189,.T.);
#267=ORIENTED_EDGE('',*,*,#194,.F.);
#268=ORIENTED_EDGE('',*,*,#169,.T.);
#269=ORIENTED_EDGE('',*,*,#168,.T.);
#270=ORIENTED_EDGE('',*,*,#195,.T.);
#271=ORIENTED_EDGE('',*,*,#187,.T.);
#272=ORIENTED_EDGE('',*,*,#192,.T.);
#273=ORIENTED_EDGE('',*,*,#196,.T.);
#274=ORIENTED_EDGE('',*,*,#166,.T.);
#275=ORIENTED_EDGE('',*,*,#171,.T.);
#276=ORIENTED_EDGE('',*,*,#193,.F.);
#277=ORIENTED_EDGE('',*,*,#191,.T.);
#278=ORIENTED_EDGE('',*,*,#195,.F.);
#279=ORIENTED_EDGE('',*,*,#167,.T.);
#280=ORIENTED_EDGE('',*,*,#196,.F.);
#281=CYLINDRICAL_SURFACE('',#319,0.0395660870415853);
#282=CYLINDRICAL_SURFACE('',#332,0.669291338582677);
#283=CYLINDRICAL_SURFACE('',#337,0.590551181102362);
#284=CYLINDRICAL_SURFACE('',#340,0.0395660870415853);
#285=CYLINDRICAL_SURFACE('',#348,0.590551181102362);
#286=CYLINDRICAL_SURFACE('',#350,0.669291338582677);
#287=ADVANCED_FACE('',(#27),#281,.T.);
#288=ADVANCED_FACE('',(#28),#15,.F.);
#289=ADVANCED_FACE('',(#29),#16,.F.);
#290=ADVANCED_FACE('',(#30),#17,.F.);
#291=ADVANCED_FACE('',(#31),#18,.F.);
#292=ADVANCED_FACE('',(#32),#19,.F.);
#293=ADVANCED_FACE('',(#33),#20,.F.);
#294=ADVANCED_FACE('',(#34),#282,.T.);
#295=ADVANCED_FACE('',(#35),#21,.F.);
#296=ADVANCED_FACE('',(#36),#283,.F.);
#297=ADVANCED_FACE('',(#37),#22,.T.);
#298=ADVANCED_FACE('',(#38),#284,.T.);
#299=ADVANCED_FACE('',(#39),#23,.F.);
#300=ADVANCED_FACE('',(#40),#24,.F.);
#301=ADVANCED_FACE('',(#41),#25,.T.);
#302=ADVANCED_FACE('',(#42),#285,.F.);
#303=ADVANCED_FACE('',(#43),#286,.T.);
#304=ADVANCED_FACE('',(#44),#26,.F.);
#305=CLOSED_SHELL('',(#287,#288,#289,#290,#291,#292,#293,#294,#295,#296,
#297,#298,#299,#300,#301,#302,#303,#304));
#306=DERIVED_UNIT_ELEMENT(#308,1.);
#307=DERIVED_UNIT_ELEMENT(#541,3.);
#308=(
MASS_UNIT()
NAMED_UNIT(*)
SI_UNIT(.KILO.,.GRAM.)
);
#309=DERIVED_UNIT((#306,#307));
#310=MEASURE_REPRESENTATION_ITEM('density measure',
POSITIVE_RATIO_MEASURE(4430.),#309);
#311=PROPERTY_DEFINITION_REPRESENTATION(#316,#313);
#312=PROPERTY_DEFINITION_REPRESENTATION(#317,#314);
#313=REPRESENTATION('material name',(#315),#536);
#314=REPRESENTATION('density',(#310),#536);
#315=DESCRIPTIVE_REPRESENTATION_ITEM('Titanium 6Al-4V',
'Titanium 6Al-4V');
#316=PROPERTY_DEFINITION('material property','material name',#549);
#317=PROPERTY_DEFINITION('material property','density of part',#549);
#318=AXIS2_PLACEMENT_3D('placement',#449,#353,#354);
#319=AXIS2_PLACEMENT_3D('',#450,#355,#356);
#320=AXIS2_PLACEMENT_3D('',#453,#357,#358);
#321=AXIS2_PLACEMENT_3D('',#457,#360,#361);
#322=AXIS2_PLACEMENT_3D('',#458,#362,#363);
#323=AXIS2_PLACEMENT_3D('',#459,#364,#365);
#324=AXIS2_PLACEMENT_3D('',#460,#366,#367);
#325=AXIS2_PLACEMENT_3D('',#466,#371,#372);
#326=AXIS2_PLACEMENT_3D('',#472,#376,#377);
#327=AXIS2_PLACEMENT_3D('',#478,#381,#382);
#328=AXIS2_PLACEMENT_3D('',#484,#386,#387);
#329=AXIS2_PLACEMENT_3D('',#487,#388,#389);
#330=AXIS2_PLACEMENT_3D('',#493,#393,#394);
#331=AXIS2_PLACEMENT_3D('',#494,#395,#396);
#332=AXIS2_PLACEMENT_3D('',#500,#400,#401);
#333=AXIS2_PLACEMENT_3D('',#501,#402,#403);
#334=AXIS2_PLACEMENT_3D('',#502,#404,#405);
#335=AXIS2_PLACEMENT_3D('',#503,#406,#407);
#336=AXIS2_PLACEMENT_3D('',#504,#408,#409);
#337=AXIS2_PLACEMENT_3D('',#505,#410,#411);
#338=AXIS2_PLACEMENT_3D('',#506,#412,#413);
#339=AXIS2_PLACEMENT_3D('',#507,#414,#415);
#340=AXIS2_PLACEMENT_3D('',#508,#416,#417);
#341=AXIS2_PLACEMENT_3D('',#512,#419,#420);
#342=AXIS2_PLACEMENT_3D('',#513,#421,#422);
#343=AXIS2_PLACEMENT_3D('',#514,#423,#424);
#344=AXIS2_PLACEMENT_3D('',#520,#428,#429);
#345=AXIS2_PLACEMENT_3D('',#526,#433,#434);
#346=AXIS2_PLACEMENT_3D('',#527,#435,#436);
#347=AXIS2_PLACEMENT_3D('',#528,#437,#438);
#348=AXIS2_PLACEMENT_3D('',#529,#439,#440);
#349=AXIS2_PLACEMENT_3D('',#530,#441,#442);
#350=AXIS2_PLACEMENT_3D('',#531,#443,#444);
#351=AXIS2_PLACEMENT_3D('',#532,#445,#446);
#352=AXIS2_PLACEMENT_3D('',#533,#447,#448);
#353=DIRECTION('axis',(0.,0.,1.));
#354=DIRECTION('refdir',(1.,0.,0.));
#355=DIRECTION('center_axis',(0.,0.,1.));
#356=DIRECTION('ref_axis',(1.,0.,0.));
#357=DIRECTION('center_axis',(0.,0.,1.));
#358=DIRECTION('ref_axis',(1.,0.,0.));
#359=DIRECTION('',(0.,0.,-1.));
#360=DIRECTION('center_axis',(0.,0.,-1.));
#361=DIRECTION('ref_axis',(1.,0.,0.));
#362=DIRECTION('center_axis',(0.,0.,-1.));
#363=DIRECTION('ref_axis',(1.,0.,0.));
#364=DIRECTION('center_axis',(0.,0.,1.));
#365=DIRECTION('ref_axis',(1.,0.,0.));
#366=DIRECTION('center_axis',(0.,0.,-1.));
#367=DIRECTION('ref_axis',(1.,0.,0.));
#368=DIRECTION('',(0.,-1.,0.));
#369=DIRECTION('',(1.,0.,0.));
#370=DIRECTION('',(0.,1.,0.));
#371=DIRECTION('center_axis',(0.,0.,-1.));
#372=DIRECTION('ref_axis',(1.,0.,0.));
#373=DIRECTION('',(0.,1.,0.));
#374=DIRECTION('',(-1.,0.,0.));
#375=DIRECTION('',(0.,-1.,0.));
#376=DIRECTION('center_axis',(0.,0.,1.));
#377=DIRECTION('ref_axis',(-1.,0.,0.));
#378=DIRECTION('',(0.,1.,0.));
#379=DIRECTION('',(1.,0.,0.));
#380=DIRECTION('',(0.,-1.,0.));
#381=DIRECTION('center_axis',(0.,0.,1.));
#382=DIRECTION('ref_axis',(-1.,0.,0.));
#383=DIRECTION('',(0.,-1.,0.));
#384=DIRECTION('',(-1.,0.,0.));
#385=DIRECTION('',(0.,1.,0.));
#386=DIRECTION('center_axis',(0.,0.,-1.));
#387=DIRECTION('ref_axis',(1.,0.,0.));
#388=DIRECTION('center_axis',(0.,0.,-1.));
#389=DIRECTION('ref_axis',(-1.,0.,0.));
#390=DIRECTION('',(0.,1.,0.));
#391=DIRECTION('',(-1.,0.,0.));
#392=DIRECTION('',(0.,-1.,0.));
#393=DIRECTION('center_axis',(0.,0.,-1.));
#394=DIRECTION('ref_axis',(1.,0.,0.));
#395=DIRECTION('center_axis',(0.,0.,-1.));
#396=DIRECTION('ref_axis',(-1.,0.,0.));
#397=DIRECTION('',(0.,-1.,0.));
#398=DIRECTION('',(1.,0.,0.));
#399=DIRECTION('',(0.,1.,0.));
#400=DIRECTION('center_axis',(0.,1.,0.));
#401=DIRECTION('ref_axis',(1.,0.,0.));
#402=DIRECTION('center_axis',(0.,1.,0.));
#403=DIRECTION('ref_axis',(1.,0.,0.));
#404=DIRECTION('center_axis',(0.,1.,0.));
#405=DIRECTION('ref_axis',(1.,0.,0.));
#406=DIRECTION('center_axis',(0.,1.,0.));
#407=DIRECTION('ref_axis',(1.,0.,0.));
#408=DIRECTION('center_axis',(0.,-1.,0.));
#409=DIRECTION('ref_axis',(1.,0.,0.));
#410=DIRECTION('center_axis',(0.,1.,0.));
#411=DIRECTION('ref_axis',(1.,0.,0.));
#412=DIRECTION('center_axis',(0.,-1.,0.));
#413=DIRECTION('ref_axis',(1.,0.,0.));
#414=DIRECTION('center_axis',(0.,1.,0.));
#415=DIRECTION('ref_axis',(1.,0.,0.));
#416=DIRECTION('center_axis',(0.,0.,-1.));
#417=DIRECTION('ref_axis',(-1.,0.,0.));
#418=DIRECTION('',(0.,0.,1.));
#419=DIRECTION('center_axis',(0.,0.,1.));
#420=DIRECTION('ref_axis',(-1.,0.,0.));
#421=DIRECTION('center_axis',(0.,0.,1.));
#422=DIRECTION('ref_axis',(-1.,0.,0.));
#423=DIRECTION('center_axis',(0.,0.,1.));
#424=DIRECTION('ref_axis',(-1.,0.,0.));
#425=DIRECTION('',(0.,-1.,0.));
#426=DIRECTION('',(-1.,0.,0.));
#427=DIRECTION('',(0.,1.,0.));
#428=DIRECTION('center_axis',(0.,0.,1.));
#429=DIRECTION('ref_axis',(-1.,0.,0.));
#430=DIRECTION('',(0.,1.,0.));
#431=DIRECTION('',(1.,0.,0.));
#432=DIRECTION('',(0.,-1.,0.));
#433=DIRECTION('center_axis',(0.,1.,0.));
#434=DIRECTION('ref_axis',(1.,0.,0.));
#435=DIRECTION('center_axis',(0.,1.,0.));
#436=DIRECTION('ref_axis',(1.,0.,0.));
#437=DIRECTION('center_axis',(0.,-1.,0.));
#438=DIRECTION('ref_axis',(1.,0.,0.));
#439=DIRECTION('center_axis',(0.,1.,0.));
#440=DIRECTION('ref_axis',(1.,0.,0.));
#441=DIRECTION('center_axis',(0.,-1.,0.));
#442=DIRECTION('ref_axis',(1.,0.,0.));
#443=DIRECTION('center_axis',(0.,1.,0.));
#444=DIRECTION('ref_axis',(1.,0.,0.));
#445=DIRECTION('center_axis',(0.,1.,0.));
#446=DIRECTION('ref_axis',(1.,0.,0.));
#447=DIRECTION('center_axis',(0.,1.,0.));
#448=DIRECTION('ref_axis',(1.,0.,0.));
#449=CARTESIAN_POINT('',(0.,0.,0.));
#450=CARTESIAN_POINT('Origin',(0.62680066325572,0.6,-0.0625));
#451=CARTESIAN_POINT('',(0.587234576214135,0.6,0.0625));
#452=CARTESIAN_POINT('',(0.666366750297306,0.6,0.0625));
#453=CARTESIAN_POINT('Origin',(0.62680066325572,0.6,0.0625));
#454=CARTESIAN_POINT('',(0.587234576214135,0.6,-0.0625));
#455=CARTESIAN_POINT('',(0.587234576214135,0.6,-0.0625));
#456=CARTESIAN_POINT('',(0.666366750297306,0.6,-0.0625));
#457=CARTESIAN_POINT('Origin',(0.62680066325572,0.6,-0.0625));
#458=CARTESIAN_POINT('Origin',(0.62680066325572,0.6,-0.0625));
#459=CARTESIAN_POINT('Origin',(0.62680066325572,0.6,0.0625));
#460=CARTESIAN_POINT('Origin',(0.587234576214135,1.2,-0.0625));
#461=CARTESIAN_POINT('',(0.666366750297306,1.2,-0.0625));
#462=CARTESIAN_POINT('',(0.666366750297306,0.,-0.0625));
#463=CARTESIAN_POINT('',(0.587234576214135,1.2,-0.0625));
#464=CARTESIAN_POINT('',(0.293617288107068,1.2,-0.0625));
#465=CARTESIAN_POINT('',(0.587234576214135,0.,-0.0625));
#466=CARTESIAN_POINT('Origin',(0.587234576214135,1.2,-0.0625));
#467=CARTESIAN_POINT('',(0.587234576214135,0.,-0.0625));
#468=CARTESIAN_POINT('',(0.587234576214135,0.,-0.0625));
#469=CARTESIAN_POINT('',(0.666366750297306,0.,-0.0625));
#470=CARTESIAN_POINT('',(0.293617288107068,0.,-0.0625));
#471=CARTESIAN_POINT('',(0.666366750297306,0.,-0.0625));
#472=CARTESIAN_POINT('Origin',(0.666366750297306,1.2,0.0625));
#473=CARTESIAN_POINT('',(0.666366750297306,0.,0.0625));
#474=CARTESIAN_POINT('',(0.666366750297306,0.,0.0625));
#475=CARTESIAN_POINT('',(0.587234576214135,0.,0.0625));
#476=CARTESIAN_POINT('',(0.333183375148653,0.,0.0625));
#477=CARTESIAN_POINT('',(0.587234576214135,0.,0.0625));
#478=CARTESIAN_POINT('Origin',(0.666366750297306,1.2,0.0625));
#479=CARTESIAN_POINT('',(0.587234576214135,1.2,0.0625));
#480=CARTESIAN_POINT('',(0.587234576214135,0.,0.0625));
#481=CARTESIAN_POINT('',(0.666366750297306,1.2,0.0625));
#482=CARTESIAN_POINT('',(0.333183375148653,1.2,0.0625));
#483=CARTESIAN_POINT('',(0.666366750297306,0.,0.0625));
#484=CARTESIAN_POINT('Origin',(-0.666366750297306,1.2,-0.0625));
#485=CARTESIAN_POINT('',(-0.587234576214135,0.6,-0.0625));
#486=CARTESIAN_POINT('',(-0.666366750297306,0.6,-0.0625));
#487=CARTESIAN_POINT('Origin',(-0.62680066325572,0.6,-0.0625));
#488=CARTESIAN_POINT('',(-0.666366750297306,0.,-0.0625));
#489=CARTESIAN_POINT('',(-0.666366750297306,0.,-0.0625));
#490=CARTESIAN_POINT('',(-0.587234576214135,0.,-0.0625));
#491=CARTESIAN_POINT('',(-0.333183375148653,0.,-0.0625));
#492=CARTESIAN_POINT('',(-0.587234576214135,0.,-0.0625));
#493=CARTESIAN_POINT('Origin',(-0.666366750297306,1.2,-0.0625));
#494=CARTESIAN_POINT('Origin',(-0.62680066325572,0.6,-0.0625));
#495=CARTESIAN_POINT('',(-0.587234576214135,1.2,-0.0625));
#496=CARTESIAN_POINT('',(-0.587234576214135,0.,-0.0625));
#497=CARTESIAN_POINT('',(-0.666366750297306,1.2,-0.0625));
#498=CARTESIAN_POINT('',(-0.333183375148653,1.2,-0.0625));
#499=CARTESIAN_POINT('',(-0.666366750297306,0.,-0.0625));
#500=CARTESIAN_POINT('Origin',(0.,0.,0.));
#501=CARTESIAN_POINT('Origin',(0.,1.2,0.));
#502=CARTESIAN_POINT('Origin',(0.,0.,0.));
#503=CARTESIAN_POINT('Origin',(0.,0.,0.));
#504=CARTESIAN_POINT('Origin',(0.,0.,0.));
#505=CARTESIAN_POINT('Origin',(0.,0.,0.));
#506=CARTESIAN_POINT('Origin',(0.,1.2,0.));
#507=CARTESIAN_POINT('Origin',(0.,1.2,0.));
#508=CARTESIAN_POINT('Origin',(-0.62680066325572,0.6,0.0625));
#509=CARTESIAN_POINT('',(-0.587234576214135,0.6,0.0625));
#510=CARTESIAN_POINT('',(-0.587234576214135,0.6,0.0625));
#511=CARTESIAN_POINT('',(-0.666366750297306,0.6,0.0625));
#512=CARTESIAN_POINT('Origin',(-0.62680066325572,0.6,0.0625));
#513=CARTESIAN_POINT('Origin',(-0.62680066325572,0.6,0.0625));
#514=CARTESIAN_POINT('Origin',(-0.587234576214135,1.2,0.0625));
#515=CARTESIAN_POINT('',(-0.666366750297306,1.2,0.0625));
#516=CARTESIAN_POINT('',(-0.666366750297306,0.,0.0625));
#517=CARTESIAN_POINT('',(-0.587234576214135,1.2,0.0625));
#518=CARTESIAN_POINT('',(-0.293617288107068,1.2,0.0625));
#519=CARTESIAN_POINT('',(-0.587234576214135,0.,0.0625));
#520=CARTESIAN_POINT('Origin',(-0.587234576214135,1.2,0.0625));
#521=CARTESIAN_POINT('',(-0.587234576214135,0.,0.0625));
#522=CARTESIAN_POINT('',(-0.587234576214135,0.,0.0625));
#523=CARTESIAN_POINT('',(-0.666366750297306,0.,0.0625));
#524=CARTESIAN_POINT('',(-0.293617288107068,0.,0.0625));
#525=CARTESIAN_POINT('',(-0.666366750297306,0.,0.0625));
#526=CARTESIAN_POINT('Origin',(0.,1.2,0.));
#527=CARTESIAN_POINT('Origin',(0.,1.2,0.));
#528=CARTESIAN_POINT('Origin',(0.,1.2,0.));
#529=CARTESIAN_POINT('Origin',(0.,0.,0.));
#530=CARTESIAN_POINT('Origin',(0.,0.,0.));
#531=CARTESIAN_POINT('Origin',(0.,0.,0.));
#532=CARTESIAN_POINT('Origin',(0.,0.,0.));
#533=CARTESIAN_POINT('Origin',(0.,0.,0.));
#534=UNCERTAINTY_MEASURE_WITH_UNIT(LENGTH_MEASURE(0.000393700787401575),
#539,'DISTANCE_ACCURACY_VALUE',
'Maximum model space distance between geometric entities at asserted c
onnectivities');
#535=UNCERTAINTY_MEASURE_WITH_UNIT(LENGTH_MEASURE(0.000393700787401575),
#539,'DISTANCE_ACCURACY_VALUE',
'Maximum model space distance between geometric entities at asserted c
onnectivities');
#536=(
GEOMETRIC_REPRESENTATION_CONTEXT(3)
GLOBAL_UNCERTAINTY_ASSIGNED_CONTEXT((#534))
GLOBAL_UNIT_ASSIGNED_CONTEXT((#539,#543,#544))
REPRESENTATION_CONTEXT('','3D')
);
#537=(
GEOMETRIC_REPRESENTATION_CONTEXT(3)
GLOBAL_UNCERTAINTY_ASSIGNED_CONTEXT((#535))
GLOBAL_UNIT_ASSIGNED_CONTEXT((#539,#543,#544))
REPRESENTATION_CONTEXT('','3D')
);
#538=DIMENSIONAL_EXPONENTS(1.,0.,0.,0.,0.,0.,0.);
#539=(
CONVERSION_BASED_UNIT('inch',#542)
LENGTH_UNIT()
NAMED_UNIT(#538)
);
#540=(
LENGTH_UNIT()
NAMED_UNIT(*)
SI_UNIT(.MILLI.,.METRE.)
);
#541=(
LENGTH_UNIT()
NAMED_UNIT(*)
SI_UNIT($,.METRE.)
);
#542=LENGTH_MEASURE_WITH_UNIT(LENGTH_MEASURE(25.4),#540);
#543=(
NAMED_UNIT(*)
PLANE_ANGLE_UNIT()
SI_UNIT($,.RADIAN.)
);
#544=(
NAMED_UNIT(*)
SI_UNIT($,.STERADIAN.)
SOLID_ANGLE_UNIT()
);
#545=SHAPE_DEFINITION_REPRESENTATION(#546,#547);
#546=PRODUCT_DEFINITION_SHAPE('',$,#549);
#547=SHAPE_REPRESENTATION('',(#318),#536);
#548=PRODUCT_DEFINITION_CONTEXT('part definition',#553,'design');
#549=PRODUCT_DEFINITION('MK65SCadapt','MK65SCadapt v3',#550,#548);
#550=PRODUCT_DEFINITION_FORMATION('',$,#555);
#551=PRODUCT_RELATED_PRODUCT_CATEGORY('MK65SCadapt v3','MK65SCadapt v3',
(#555));
#552=APPLICATION_PROTOCOL_DEFINITION('international standard',
'automotive_design',2009,#553);
#553=APPLICATION_CONTEXT(
'Core Data for Automotive Mechanical Design Process');
#554=PRODUCT_CONTEXT('part definition',#553,'mechanical');
#555=PRODUCT('MK65SCadapt','MK65SCadapt v3',$,(#554));
#556=PRESENTATION_STYLE_ASSIGNMENT((#557));
#557=SURFACE_STYLE_USAGE(.BOTH.,#558);
#558=SURFACE_SIDE_STYLE('',(#559));
#559=SURFACE_STYLE_FILL_AREA(#560);
#560=FILL_AREA_STYLE('Titanium - Polished',(#561));
#561=FILL_AREA_STYLE_COLOUR('Titanium - Polished',#562);
#562=COLOUR_RGB('Titanium - Polished',0.749019607843137,0.729411764705882,
0.701960784313725);
ENDSEC;
END-ISO-10303-21;
